ISO-10303-21;
HEADER;
FILE_DESCRIPTION (( 'STEP AP203' ),
    '1' );
FILE_NAME ('QB-CTZQWP-10-633-M.STEP',
    '2020-12-24T01:48:29',
    ( '' ),
    ( '' ),
    'SwSTEP 2.0',
    'SolidWorks 2020',
    '' );
FILE_SCHEMA (( 'CONFIG_CONTROL_DESIGN' ));
ENDSEC;

DATA;
#1 = CARTESIAN_POINT ( 'NONE',  ( 3.000000000000000000, 0.000000000000000000, 5.000000000000001776 ) ) ;
#2 = CARTESIAN_POINT ( 'NONE',  ( -1.614212418857619014, 0.000000000000000000, 12.69999999999999929 ) ) ;
#3 = ADVANCED_FACE ( 'NONE', ( #186, #17 ), #128, .F. ) ;
#4 = CARTESIAN_POINT ( 'NONE',  ( -3.000000000000000000, 0.000000000000000000, 0.000000000000000000 ) ) ;
#5 = AXIS2_PLACEMENT_3D ( 'NONE', #191, #57, #35 ) ;
#6 = EDGE_CURVE ( 'NONE', #156, #108, #65, .T. ) ;
#7 = DIRECTION ( 'NONE',  ( -1.000000000000000000, -0.000000000000000000, -0.000000000000000000 ) ) ;
#8 = LINE ( 'NONE', #117, #318 ) ;
#9 = DIRECTION ( 'NONE',  ( -1.000000000000000000, -0.000000000000000000, -0.000000000000000000 ) ) ;
#10 = PERSON_AND_ORGANIZATION_ROLE ( 'design_owner' ) ;
#11 = VERTEX_POINT ( 'NONE', #239 ) ;
#12 = DIRECTION ( 'NONE',  ( 1.000000000000000000, 0.000000000000000000, 0.000000000000000000 ) ) ;
#13 = APPROVAL ( #324, 'UNSPECIFIED' ) ;
#14 = DIRECTION ( 'NONE',  ( 0.000000000000000000, 0.000000000000000000, 1.000000000000000000 ) ) ;
#15 = CARTESIAN_POINT ( 'NONE',  ( 1.250000000000000444, 0.000000000000000000, 0.000000000000000000 ) ) ;
#16 = AXIS2_PLACEMENT_3D ( 'NONE', #143, #164, #120 ) ;
#17 = FACE_OUTER_BOUND ( 'NONE', #134, .T. ) ;
#18 = COORDINATED_UNIVERSAL_TIME_OFFSET ( 8, 0, .AHEAD. ) ;
#19 = VERTEX_POINT ( 'NONE', #287 ) ;
#20 = ORIENTED_EDGE ( 'NONE', *, *, #157, .T. ) ;
#21 = AXIS2_PLACEMENT_3D ( 'NONE', #142, #244, #242 ) ;
#22 = SECURITY_CLASSIFICATION ( '', '', #202 ) ;
#23 = EDGE_LOOP ( 'NONE', ( #161, #208, #173, #89 ) ) ;
#24 = DIRECTION ( 'NONE',  ( 0.000000000000000000, 0.000000000000000000, 1.000000000000000000 ) ) ;
#25 = DIRECTION ( 'NONE',  ( 0.000000000000000000, 0.000000000000000000, 1.000000000000000000 ) ) ;
#26 = APPROVAL_PERSON_ORGANIZATION ( #176, #13, #105 ) ;
#27 = CYLINDRICAL_SURFACE ( 'NONE', #67, 12.69999999999999929 ) ;
#28 = FACE_BOUND ( 'NONE', #305, .T. ) ;
#29 = CYLINDRICAL_SURFACE ( 'NONE', #170, 5.000000000000000888 ) ;
#30 = ADVANCED_FACE ( 'NONE', ( #311, #28 ), #56, .F. ) ;
#31 = CC_DESIGN_PERSON_AND_ORGANIZATION_ASSIGNMENT ( #200, #78, ( #42 ) ) ;
#32 = CARTESIAN_POINT ( 'NONE',  ( -1.250000000000000222, 0.000000000000000000, 0.000000000000000000 ) ) ;
#33 = ORGANIZATION ( 'UNSPECIFIED', 'UNSPECIFIED', '' ) ;
#34 = FACE_OUTER_BOUND ( 'NONE', #329, .T. ) ;
#35 = DIRECTION ( 'NONE',  ( 0.000000000000000000, 0.000000000000000000, 1.000000000000000000 ) ) ;
#36 = MECHANICAL_CONTEXT ( 'NONE', #194, 'mechanical' ) ;
#37 = DIRECTION ( 'NONE',  ( 0.000000000000000000, 0.000000000000000000, 1.000000000000000000 ) ) ;
#38 = ORIENTED_EDGE ( 'NONE', *, *, #216, .F. ) ;
#39 = APPROVAL_DATE_TIME ( #320, #296 ) ;
#40 = CIRCLE ( 'NONE', #304, 12.69999999999999929 ) ;
#41 = DIRECTION ( 'NONE',  ( -1.000000000000000000, -0.000000000000000000, -0.000000000000000000 ) ) ;
#42 = PRODUCT_DEFINITION_FORMATION_WITH_SPECIFIED_SOURCE ( 'ANY', '', #74, .NOT_KNOWN. ) ;
#43 = CARTESIAN_POINT ( 'NONE',  ( -3.000000000000000000, 0.000000000000000000, 0.000000000000000000 ) ) ;
#44 = SHAPE_DEFINITION_REPRESENTATION ( #225, #148 ) ;
#45 = APPROVAL_ROLE ( '' ) ;
#46 = CIRCLE ( 'NONE', #181, 5.000000000000000888 ) ;
#47 = VERTEX_POINT ( 'NONE', #335 ) ;
#48 = EDGE_CURVE ( 'NONE', #123, #55, #137, .T. ) ;
#49 = VERTEX_POINT ( 'NONE', #215 ) ;
#50 = ORIENTED_EDGE ( 'NONE', *, *, #127, .F. ) ;
#51 = CIRCLE ( 'NONE', #270, 12.69999999999999929 ) ;
#52 = ADVANCED_FACE ( 'NONE', ( #113 ), #115, .F. ) ;
#53 = ORIENTED_EDGE ( 'NONE', *, *, #238, .F. ) ;
#54 = CC_DESIGN_APPROVAL ( #69, ( #22 ) ) ;
#55 = VERTEX_POINT ( 'NONE', #163 ) ;
#56 = PLANE ( 'NONE',  #290 ) ;
#57 = DIRECTION ( 'NONE',  ( -1.000000000000000000, -0.000000000000000000, -0.000000000000000000 ) ) ;
#58 = CIRCLE ( 'NONE', #265, 5.000000000000001776 ) ;
#59 = CC_DESIGN_APPROVAL ( #13, ( #42 ) ) ;
#60 = UNCERTAINTY_MEASURE_WITH_UNIT (LENGTH_MEASURE( 1.000000000000000082E-05 ), #124, 'distance_accuracy_value', 'NONE');
#61 = CARTESIAN_POINT ( 'NONE',  ( -1.614212418857619014, 1.555301434917138433E-15, -12.69999999999999929 ) ) ;
#62 = FACE_OUTER_BOUND ( 'NONE', #327, .T. ) ;
#63 = CC_DESIGN_PERSON_AND_ORGANIZATION_ASSIGNMENT ( #247, #10, ( #74 ) ) ;
#64 = CARTESIAN_POINT ( 'NONE',  ( 1.250000000000000444, 0.000000000000000000, 5.000000000000000000 ) ) ;
#65 = CIRCLE ( 'NONE', #211, 5.000000000000000000 ) ;
#66 = ADVANCED_FACE ( 'NONE', ( #91 ), #135, .T. ) ;
#67 = AXIS2_PLACEMENT_3D ( 'NONE', #136, #70, #172 ) ;
#68 = LINE ( 'NONE', #61, #125 ) ;
#69 = APPROVAL ( #302, 'UNSPECIFIED' ) ;
#70 = DIRECTION ( 'NONE',  ( -1.000000000000000000, -0.000000000000000000, -0.000000000000000000 ) ) ;
#71 = APPROVAL_STATUS ( 'not_yet_approved' ) ;
#72 = DIRECTION ( 'NONE',  ( -1.000000000000000000, -0.000000000000000000, -0.000000000000000000 ) ) ;
#73 = DATE_TIME_ROLE ( 'classification_date' ) ;
#74 = PRODUCT ( 'QB-CTZQWP-10-633-M', 'QB-CTZQWP-10-633-M', '', ( #36 ) ) ;
#75 = CIRCLE ( 'NONE', #255, 12.69999999999999929 ) ;
#76 = DIRECTION ( 'NONE',  ( 0.000000000000000000, 0.000000000000000000, 1.000000000000000000 ) ) ;
#77 = LOCAL_TIME ( 9, 48, 29.00000000000000000, #254 ) ;
#78 = PERSON_AND_ORGANIZATION_ROLE ( 'design_supplier' ) ;
#79 = CARTESIAN_POINT ( 'NONE',  ( 0.000000000000000000, 0.000000000000000000, 0.000000000000000000 ) ) ;
#80 = DATE_AND_TIME ( #221, #77 ) ;
#81 = EDGE_LOOP ( 'NONE', ( #281, #257 ) ) ;
#82 = EDGE_CURVE ( 'NONE', #87, #123, #51, .T. ) ;
#83 = DATE_TIME_ROLE ( 'creation_date' ) ;
#84 = ADVANCED_FACE ( 'NONE', ( #167 ), #139, .F. ) ;
#85 = ORIENTED_EDGE ( 'NONE', *, *, #154, .T. ) ;
#86 = LOCAL_TIME ( 9, 48, 29.00000000000000000, #146 ) ;
#87 = VERTEX_POINT ( 'NONE', #291 ) ;
#88 = EDGE_LOOP ( 'NONE', ( #159, #275 ) ) ;
#89 = ORIENTED_EDGE ( 'NONE', *, *, #140, .T. ) ;
#90 = APPROVAL_PERSON_ORGANIZATION ( #103, #296, #45 ) ;
#91 = FACE_OUTER_BOUND ( 'NONE', #263, .T. ) ;
#92 = DIRECTION ( 'NONE',  ( 1.000000000000000000, 0.000000000000000000, 0.000000000000000000 ) ) ;
#93 = VECTOR ( 'NONE', #41, 1000.000000000000000 ) ;
#94 = EDGE_CURVE ( 'NONE', #325, #210, #236, .T. ) ;
#95 = CARTESIAN_POINT ( 'NONE',  ( -3.000000000000000000, 0.000000000000000000, 0.000000000000000000 ) ) ;
#96 = DIRECTION ( 'NONE',  ( -1.000000000000000000, -0.000000000000000000, -0.000000000000000000 ) ) ;
#97 = CC_DESIGN_PERSON_AND_ORGANIZATION_ASSIGNMENT ( #207, #100, ( #42 ) ) ;
#98 = DIRECTION ( 'NONE',  ( 0.000000000000000000, 0.000000000000000000, -1.000000000000000000 ) ) ;
#99 = APPROVAL_DATE_TIME ( #80, #13 ) ;
#100 = PERSON_AND_ORGANIZATION_ROLE ( 'creator' ) ;
#101 =( NAMED_UNIT ( * ) SI_UNIT ( $, .STERADIAN. ) SOLID_ANGLE_UNIT ( ) );
#102 = APPROVAL_ROLE ( '' ) ;
#103 = PERSON_AND_ORGANIZATION ( #177, #33 ) ;
#104 = ORIENTED_EDGE ( 'NONE', *, *, #216, .T. ) ;
#105 = APPROVAL_ROLE ( '' ) ;
#106 = ORIENTED_EDGE ( 'NONE', *, *, #330, .F. ) ;
#107 = ADVANCED_FACE ( 'NONE', ( #166 ), #171, .F. ) ;
#108 = VERTEX_POINT ( 'NONE', #64 ) ;
#109 = ORIENTED_EDGE ( 'NONE', *, *, #6, .T. ) ;
#110 = ORIENTED_EDGE ( 'NONE', *, *, #315, .F. ) ;
#111 = DIRECTION ( 'NONE',  ( -1.000000000000000000, -0.000000000000000000, -0.000000000000000000 ) ) ;
#112 = VECTOR ( 'NONE', #279, 1000.000000000000000 ) ;
#113 = FACE_OUTER_BOUND ( 'NONE', #23, .T. ) ;
#114 = DIRECTION ( 'NONE',  ( 0.000000000000000000, 0.000000000000000000, 1.000000000000000000 ) ) ;
#115 = CYLINDRICAL_SURFACE ( 'NONE', #280, 5.000000000000000888 ) ;
#116 = CARTESIAN_POINT ( 'NONE',  ( -3.000000000000000000, 0.000000000000000000, 0.000000000000000000 ) ) ;
#117 = CARTESIAN_POINT ( 'NONE',  ( -1.614212418857619014, 6.123233995736767268E-16, -5.000000000000000888 ) ) ;
#118 = ORIENTED_EDGE ( 'NONE', *, *, #315, .T. ) ;
#119 = AXIS2_PLACEMENT_3D ( 'NONE', #267, #92, #217 ) ;
#120 = DIRECTION ( 'NONE',  ( -0.000000000000000000, 0.000000000000000000, 1.000000000000000000 ) ) ;
#121 = CC_DESIGN_SECURITY_CLASSIFICATION ( #22, ( #42 ) ) ;
#122 = DIRECTION ( 'NONE',  ( -1.000000000000000000, -0.000000000000000000, -0.000000000000000000 ) ) ;
#123 = VERTEX_POINT ( 'NONE', #243 ) ;
#124 =( LENGTH_UNIT ( ) NAMED_UNIT ( * ) SI_UNIT ( .MILLI., .METRE. ) );
#125 = VECTOR ( 'NONE', #240, 1000.000000000000000 ) ;
#126 = DIRECTION ( 'NONE',  ( -1.000000000000000000, -0.000000000000000000, -0.000000000000000000 ) ) ;
#127 = EDGE_CURVE ( 'NONE', #47, #132, #326, .T. ) ;
#128 = PLANE ( 'NONE',  #131 ) ;
#129 = EDGE_LOOP ( 'NONE', ( #183, #20, #235, #209 ) ) ;
#130 = ORIENTED_EDGE ( 'NONE', *, *, #94, .T. ) ;
#131 = AXIS2_PLACEMENT_3D ( 'NONE', #228, #323, #165 ) ;
#132 = VERTEX_POINT ( 'NONE', #1 ) ;
#133 = PRODUCT_DEFINITION ( 'UNKNOWN', '', #42, #187 ) ;
#134 = EDGE_LOOP ( 'NONE', ( #261, #85 ) ) ;
#135 = CYLINDRICAL_SURFACE ( 'NONE', #313, 12.69999999999999929 ) ;
#136 = CARTESIAN_POINT ( 'NONE',  ( -1.614212418857619014, 0.000000000000000000, 0.000000000000000000 ) ) ;
#137 = LINE ( 'NONE', #2, #331 ) ;
#138 = DIRECTION ( 'NONE',  ( 0.000000000000000000, 0.000000000000000000, 1.000000000000000000 ) ) ;
#139 = CYLINDRICAL_SURFACE ( 'NONE', #5, 5.000000000000000888 ) ;
#140 = EDGE_CURVE ( 'NONE', #210, #325, #295, .T. ) ;
#141 = EDGE_CURVE ( 'NONE', #19, #11, #192, .T. ) ;
#142 = CARTESIAN_POINT ( 'NONE',  ( -1.614212418857619014, 0.000000000000000000, 0.000000000000000000 ) ) ;
#143 = CARTESIAN_POINT ( 'NONE',  ( 1.250000000000000222, 5.000000000000000000, 0.000000000000000000 ) ) ;
#144 = AXIS2_PLACEMENT_3D ( 'NONE', #4, #96, #312 ) ;
#145 = CARTESIAN_POINT ( 'NONE',  ( 3.000000000000000000, 0.000000000000000000, 0.000000000000000000 ) ) ;
#146 = COORDINATED_UNIVERSAL_TIME_OFFSET ( 8, 0, .AHEAD. ) ;
#147 = DIRECTION ( 'NONE',  ( 0.000000000000000000, 0.000000000000000000, 1.000000000000000000 ) ) ;
#148 = ADVANCED_BREP_SHAPE_REPRESENTATION ( 'QB-CTZQWP-10-633-M', ( #245, #262 ), #309 ) ;
#149 = CARTESIAN_POINT ( 'NONE',  ( -1.614212418857619014, 6.123233995736767268E-16, -5.000000000000000888 ) ) ;
#150 = COORDINATED_UNIVERSAL_TIME_OFFSET ( 8, 0, .AHEAD. ) ;
#151 = DIRECTION ( 'NONE',  ( 1.000000000000000000, 0.000000000000000000, 0.000000000000000000 ) ) ;
#152 = ORIENTED_EDGE ( 'NONE', *, *, #182, .T. ) ;
#153 = PERSON_AND_ORGANIZATION ( #177, #33 ) ;
#154 = EDGE_CURVE ( 'NONE', #49, #55, #40, .T. ) ;
#155 = CIRCLE ( 'NONE', #333, 12.69999999999999929 ) ;
#156 = VERTEX_POINT ( 'NONE', #195 ) ;
#157 = EDGE_CURVE ( 'NONE', #87, #49, #68, .T. ) ;
#158 = ORIENTED_EDGE ( 'NONE', *, *, #157, .F. ) ;
#159 = ORIENTED_EDGE ( 'NONE', *, *, #140, .F. ) ;
#160 = CC_DESIGN_APPROVAL ( #296, ( #133 ) ) ;
#161 = ORIENTED_EDGE ( 'NONE', *, *, #268, .F. ) ;
#162 = ORIENTED_EDGE ( 'NONE', *, *, #141, .F. ) ;
#163 = CARTESIAN_POINT ( 'NONE',  ( -3.000000000000000000, 0.000000000000000000, 12.69999999999999929 ) ) ;
#164 = DIRECTION ( 'NONE',  ( -1.000000000000000000, 0.000000000000000000, -0.000000000000000000 ) ) ;
#165 = DIRECTION ( 'NONE',  ( 0.000000000000000000, 0.000000000000000000, -1.000000000000000000 ) ) ;
#166 = FACE_OUTER_BOUND ( 'NONE', #230, .T. ) ;
#167 = FACE_OUTER_BOUND ( 'NONE', #180, .T. ) ;
#168 = DIRECTION ( 'NONE',  ( 1.000000000000000000, 0.000000000000000000, 0.000000000000000000 ) ) ;
#169 = ADVANCED_FACE ( 'NONE', ( #62 ), #29, .F. ) ;
#170 = AXIS2_PLACEMENT_3D ( 'NONE', #271, #9, #138 ) ;
#171 = PLANE ( 'NONE',  #119 ) ;
#172 = DIRECTION ( 'NONE',  ( 0.000000000000000000, 0.000000000000000000, 1.000000000000000000 ) ) ;
#173 = ORIENTED_EDGE ( 'NONE', *, *, #238, .T. ) ;
#174 = ADVANCED_FACE ( 'NONE', ( #34 ), #317, .F. ) ;
#175 = CARTESIAN_POINT ( 'NONE',  ( 3.000000000000000000, 0.000000000000000000, 0.000000000000000000 ) ) ;
#176 = PERSON_AND_ORGANIZATION ( #177, #33 ) ;
#177 = PERSON ( 'UNSPECIFIED', 'UNSPECIFIED', 'UNSPECIFIED', ('UNSPECIFIED'), ('UNSPECIFIED'), ('UNSPECIFIED') ) ;
#178 = CALENDAR_DATE ( 2020, 24, 12 ) ;
#179 = DIRECTION ( 'NONE',  ( 0.000000000000000000, 0.000000000000000000, 1.000000000000000000 ) ) ;
#180 = EDGE_LOOP ( 'NONE', ( #50, #152, #109, #110 ) ) ;
#181 = AXIS2_PLACEMENT_3D ( 'NONE', #297, #12, #319 ) ;
#182 = EDGE_CURVE ( 'NONE', #47, #156, #8, .T. ) ;
#183 = ORIENTED_EDGE ( 'NONE', *, *, #306, .T. ) ;
#184 = ORIENTED_EDGE ( 'NONE', *, *, #154, .F. ) ;
#185 = AXIS2_PLACEMENT_3D ( 'NONE', #116, #269, #114 ) ;
#186 = FACE_BOUND ( 'NONE', #88, .T. ) ;
#187 = DESIGN_CONTEXT ( 'detailed design', #205, 'design' ) ;
#188 = DIRECTION ( 'NONE',  ( 0.000000000000000000, 0.000000000000000000, 1.000000000000000000 ) ) ;
#189 = DIRECTION ( 'NONE',  ( -0.000000000000000000, 0.000000000000000000, 1.000000000000000000 ) ) ;
#190 = AXIS2_PLACEMENT_3D ( 'NONE', #316, #7, #196 ) ;
#191 = CARTESIAN_POINT ( 'NONE',  ( -1.614212418857619014, 0.000000000000000000, 0.000000000000000000 ) ) ;
#192 = CIRCLE ( 'NONE', #226, 5.000000000000000888 ) ;
#193 = LOCAL_TIME ( 9, 48, 29.00000000000000000, #322 ) ;
#194 = APPLICATION_CONTEXT ( 'configuration controlled 3d designs of mechanical parts and assemblies' ) ;
#195 = CARTESIAN_POINT ( 'NONE',  ( 1.250000000000000444, 6.123233995736766282E-16, -5.000000000000000000 ) ) ;
#196 = DIRECTION ( 'NONE',  ( 0.000000000000000000, 0.000000000000000000, 1.000000000000000000 ) ) ;
#197 = PLANE ( 'NONE',  #16 ) ;
#198 = VECTOR ( 'NONE', #250, 1000.000000000000000 ) ;
#199 = DIRECTION ( 'NONE',  ( -1.000000000000000000, -0.000000000000000000, -0.000000000000000000 ) ) ;
#200 = PERSON_AND_ORGANIZATION ( #177, #33 ) ;
#201 = ADVANCED_FACE ( 'NONE', ( #246 ), #197, .F. ) ;
#202 = SECURITY_CLASSIFICATION_LEVEL ( 'unclassified' ) ;
#203 = PERSON_AND_ORGANIZATION_ROLE ( 'classification_officer' ) ;
#204 = LOCAL_TIME ( 9, 48, 29.00000000000000000, #18 ) ;
#205 = APPLICATION_CONTEXT ( 'configuration controlled 3d designs of mechanical parts and assemblies' ) ;
#206 = APPLICATION_PROTOCOL_DEFINITION ( 'international standard', 'config_control_design', 1994, #205 ) ;
#207 = PERSON_AND_ORGANIZATION ( #177, #33 ) ;
#208 = ORIENTED_EDGE ( 'NONE', *, *, #330, .T. ) ;
#209 = ORIENTED_EDGE ( 'NONE', *, *, #48, .F. ) ;
#210 = VERTEX_POINT ( 'NONE', #220 ) ;
#211 = AXIS2_PLACEMENT_3D ( 'NONE', #214, #111, #25 ) ;
#212 = CARTESIAN_POINT ( 'NONE',  ( 3.000000000000000000, 12.69999999999999929, 0.000000000000000000 ) ) ;
#213 = ADVANCED_FACE ( 'NONE', ( #266 ), #27, .T. ) ;
#214 = CARTESIAN_POINT ( 'NONE',  ( 1.250000000000000444, 0.000000000000000000, 0.000000000000000000 ) ) ;
#215 = CARTESIAN_POINT ( 'NONE',  ( -3.000000000000000000, 1.555301434917138433E-15, -12.69999999999999929 ) ) ;
#216 = EDGE_CURVE ( 'NONE', #132, #47, #58, .T. ) ;
#217 = DIRECTION ( 'NONE',  ( 0.000000000000000000, 0.000000000000000000, -1.000000000000000000 ) ) ;
#218 = AXIS2_PLACEMENT_3D ( 'NONE', #15, #72, #76 ) ;
#219 = DIRECTION ( 'NONE',  ( -1.000000000000000000, -0.000000000000000000, -0.000000000000000000 ) ) ;
#220 = CARTESIAN_POINT ( 'NONE',  ( -3.000000000000000000, 0.000000000000000000, 5.000000000000000000 ) ) ;
#221 = CALENDAR_DATE ( 2020, 24, 12 ) ;
#222 = LOCAL_TIME ( 9, 48, 29.00000000000000000, #150 ) ;
#223 = LINE ( 'NONE', #149, #112 ) ;
#224 = CALENDAR_DATE ( 2020, 24, 12 ) ;
#225 = PRODUCT_DEFINITION_SHAPE ( 'NONE', 'NONE',  #133 ) ;
#226 = AXIS2_PLACEMENT_3D ( 'NONE', #32, #168, #98 ) ;
#227 = LINE ( 'NONE', #248, #198 ) ;
#228 = CARTESIAN_POINT ( 'NONE',  ( -3.000000000000000000, 5.000000000000000000, 0.000000000000000000 ) ) ;
#229 = PERSON_AND_ORGANIZATION_ROLE ( 'creator' ) ;
#230 = EDGE_LOOP ( 'NONE', ( #162, #106 ) ) ;
#231 = ORIENTED_EDGE ( 'NONE', *, *, #82, .T. ) ;
#232 = EDGE_CURVE ( 'NONE', #55, #49, #75, .T. ) ;
#233 = APPROVAL_PERSON_ORGANIZATION ( #249, #69, #102 ) ;
#234 = ORIENTED_EDGE ( 'NONE', *, *, #6, .F. ) ;
#235 = ORIENTED_EDGE ( 'NONE', *, *, #232, .F. ) ;
#236 = CIRCLE ( 'NONE', #144, 5.000000000000000000 ) ;
#237 = CARTESIAN_POINT ( 'NONE',  ( -1.614212418857619014, 0.000000000000000000, 0.000000000000000000 ) ) ;
#238 = EDGE_CURVE ( 'NONE', #19, #210, #274, .T. ) ;
#239 = CARTESIAN_POINT ( 'NONE',  ( -1.250000000000000222, 6.123233995736767268E-16, -5.000000000000000888 ) ) ;
#240 = DIRECTION ( 'NONE',  ( -1.000000000000000000, -0.000000000000000000, -0.000000000000000000 ) ) ;
#241 = DIRECTION ( 'NONE',  ( -1.000000000000000000, 0.000000000000000000, -0.000000000000000000 ) ) ;
#242 = DIRECTION ( 'NONE',  ( 0.000000000000000000, 0.000000000000000000, 1.000000000000000000 ) ) ;
#243 = CARTESIAN_POINT ( 'NONE',  ( 3.000000000000000000, 0.000000000000000000, 12.69999999999999929 ) ) ;
#244 = DIRECTION ( 'NONE',  ( -1.000000000000000000, -0.000000000000000000, -0.000000000000000000 ) ) ;
#245 = MANIFOLD_SOLID_BREP ( 'Ðý×', #260 ) ;
#246 = FACE_OUTER_BOUND ( 'NONE', #303, .T. ) ;
#247 = PERSON_AND_ORGANIZATION ( #177, #33 ) ;
#248 = CARTESIAN_POINT ( 'NONE',  ( -1.614212418857619014, 0.000000000000000000, 5.000000000000000888 ) ) ;
#249 = PERSON_AND_ORGANIZATION ( #177, #33 ) ;
#250 = DIRECTION ( 'NONE',  ( -1.000000000000000000, -0.000000000000000000, -0.000000000000000000 ) ) ;
#251 = PERSON_AND_ORGANIZATION ( #177, #33 ) ;
#252 = CALENDAR_DATE ( 2020, 24, 12 ) ;
#253 = DIRECTION ( 'NONE',  ( -1.000000000000000000, -0.000000000000000000, -0.000000000000000000 ) ) ;
#254 = COORDINATED_UNIVERSAL_TIME_OFFSET ( 8, 0, .AHEAD. ) ;
#255 = AXIS2_PLACEMENT_3D ( 'NONE', #43, #253, #37 ) ;
#256 = ORIENTED_EDGE ( 'NONE', *, *, #268, .T. ) ;
#257 = ORIENTED_EDGE ( 'NONE', *, *, #82, .F. ) ;
#258 = CC_DESIGN_PERSON_AND_ORGANIZATION_ASSIGNMENT ( #251, #203, ( #22 ) ) ;
#259 = CC_DESIGN_DATE_AND_TIME_ASSIGNMENT ( #294, #83, ( #133 ) ) ;
#260 = CLOSED_SHELL ( 'NONE', ( #213, #174, #84, #201, #169, #52, #3, #66, #30, #107 ) ) ;
#261 = ORIENTED_EDGE ( 'NONE', *, *, #232, .T. ) ;
#262 = AXIS2_PLACEMENT_3D ( 'NONE', #79, #179, #151 ) ;
#263 = EDGE_LOOP ( 'NONE', ( #158, #231, #283, #184 ) ) ;
#264 = DIRECTION ( 'NONE',  ( -1.000000000000000000, -0.000000000000000000, -0.000000000000000000 ) ) ;
#265 = AXIS2_PLACEMENT_3D ( 'NONE', #175, #122, #14 ) ;
#266 = FACE_OUTER_BOUND ( 'NONE', #129, .T. ) ;
#267 = CARTESIAN_POINT ( 'NONE',  ( -1.250000000000000222, 5.000000000000000000, 0.000000000000000000 ) ) ;
#268 = EDGE_CURVE ( 'NONE', #11, #325, #223, .T. ) ;
#269 = DIRECTION ( 'NONE',  ( -1.000000000000000000, -0.000000000000000000, -0.000000000000000000 ) ) ;
#270 = AXIS2_PLACEMENT_3D ( 'NONE', #286, #199, #289 ) ;
#271 = CARTESIAN_POINT ( 'NONE',  ( -1.614212418857619014, 0.000000000000000000, 0.000000000000000000 ) ) ;
#272 = DIRECTION ( 'NONE',  ( 0.000000000000000000, 0.000000000000000000, 1.000000000000000000 ) ) ;
#273 = DATE_AND_TIME ( #252, #193 ) ;
#274 = LINE ( 'NONE', #276, #93 ) ;
#275 = ORIENTED_EDGE ( 'NONE', *, *, #94, .F. ) ;
#276 = CARTESIAN_POINT ( 'NONE',  ( -1.614212418857619014, 0.000000000000000000, 5.000000000000000888 ) ) ;
#277 =( NAMED_UNIT ( * ) PLANE_ANGLE_UNIT ( ) SI_UNIT ( $, .RADIAN. ) );
#278 = APPROVAL_DATE_TIME ( #273, #69 ) ;
#279 = DIRECTION ( 'NONE',  ( -1.000000000000000000, -0.000000000000000000, -0.000000000000000000 ) ) ;
#280 = AXIS2_PLACEMENT_3D ( 'NONE', #314, #264, #24 ) ;
#281 = ORIENTED_EDGE ( 'NONE', *, *, #306, .F. ) ;
#282 = PRODUCT_RELATED_PRODUCT_CATEGORY ( 'detail', '', ( #74 ) ) ;
#283 = ORIENTED_EDGE ( 'NONE', *, *, #48, .T. ) ;
#284 = CC_DESIGN_DATE_AND_TIME_ASSIGNMENT ( #298, #73, ( #22 ) ) ;
#285 = ORIENTED_EDGE ( 'NONE', *, *, #300, .T. ) ;
#286 = CARTESIAN_POINT ( 'NONE',  ( 3.000000000000000000, 0.000000000000000000, 0.000000000000000000 ) ) ;
#287 = CARTESIAN_POINT ( 'NONE',  ( -1.250000000000000222, 0.000000000000000000, 5.000000000000000888 ) ) ;
#288 = DIRECTION ( 'NONE',  ( -1.000000000000000000, -0.000000000000000000, -0.000000000000000000 ) ) ;
#289 = DIRECTION ( 'NONE',  ( 0.000000000000000000, 0.000000000000000000, 1.000000000000000000 ) ) ;
#290 = AXIS2_PLACEMENT_3D ( 'NONE', #212, #241, #189 ) ;
#291 = CARTESIAN_POINT ( 'NONE',  ( 3.000000000000000000, 1.555301434917138433E-15, -12.69999999999999929 ) ) ;
#292 = CIRCLE ( 'NONE', #218, 5.000000000000000000 ) ;
#293 = CARTESIAN_POINT ( 'NONE',  ( -3.000000000000000000, 6.123233995736766282E-16, -5.000000000000000000 ) ) ;
#294 = DATE_AND_TIME ( #299, #222 ) ;
#295 = CIRCLE ( 'NONE', #185, 5.000000000000000000 ) ;
#296 = APPROVAL ( #71, 'UNSPECIFIED' ) ;
#297 = CARTESIAN_POINT ( 'NONE',  ( -1.250000000000000222, 0.000000000000000000, 0.000000000000000000 ) ) ;
#298 = DATE_AND_TIME ( #178, #86 ) ;
#299 = CALENDAR_DATE ( 2020, 24, 12 ) ;
#300 = EDGE_CURVE ( 'NONE', #108, #156, #292, .T. ) ;
#301 = ORIENTED_EDGE ( 'NONE', *, *, #141, .T. ) ;
#302 = APPROVAL_STATUS ( 'not_yet_approved' ) ;
#303 = EDGE_LOOP ( 'NONE', ( #307, #234 ) ) ;
#304 = AXIS2_PLACEMENT_3D ( 'NONE', #95, #288, #272 ) ;
#305 = EDGE_LOOP ( 'NONE', ( #104, #328 ) ) ;
#306 = EDGE_CURVE ( 'NONE', #123, #87, #155, .T. ) ;
#307 = ORIENTED_EDGE ( 'NONE', *, *, #300, .F. ) ;
#308 = ORIENTED_EDGE ( 'NONE', *, *, #182, .F. ) ;
#309 =( GEOMETRIC_REPRESENTATION_CONTEXT ( 3 ) GLOBAL_UNCERTAINTY_ASSIGNED_CONTEXT ( ( #60 ) ) GLOBAL_UNIT_ASSIGNED_CONTEXT ( ( #124, #277, #101 ) ) REPRESENTATION_CONTEXT ( 'NONE', 'WORKASPACE' ) );
#310 = DIRECTION ( 'NONE',  ( -1.000000000000000000, -0.000000000000000000, -0.000000000000000000 ) ) ;
#311 = FACE_OUTER_BOUND ( 'NONE', #81, .T. ) ;
#312 = DIRECTION ( 'NONE',  ( 0.000000000000000000, 0.000000000000000000, 1.000000000000000000 ) ) ;
#313 = AXIS2_PLACEMENT_3D ( 'NONE', #237, #332, #188 ) ;
#314 = CARTESIAN_POINT ( 'NONE',  ( -1.614212418857619014, 0.000000000000000000, 0.000000000000000000 ) ) ;
#315 = EDGE_CURVE ( 'NONE', #132, #108, #227, .T. ) ;
#316 = CARTESIAN_POINT ( 'NONE',  ( 3.000000000000000000, 0.000000000000000000, 0.000000000000000000 ) ) ;
#317 = CYLINDRICAL_SURFACE ( 'NONE', #21, 5.000000000000000888 ) ;
#318 = VECTOR ( 'NONE', #219, 1000.000000000000000 ) ;
#319 = DIRECTION ( 'NONE',  ( 0.000000000000000000, 0.000000000000000000, -1.000000000000000000 ) ) ;
#320 = DATE_AND_TIME ( #224, #204 ) ;
#321 = APPLICATION_PROTOCOL_DEFINITION ( 'international standard', 'config_control_design', 1994, #194 ) ;
#322 = COORDINATED_UNIVERSAL_TIME_OFFSET ( 8, 0, .AHEAD. ) ;
#323 = DIRECTION ( 'NONE',  ( 1.000000000000000000, 0.000000000000000000, 0.000000000000000000 ) ) ;
#324 = APPROVAL_STATUS ( 'not_yet_approved' ) ;
#325 = VERTEX_POINT ( 'NONE', #293 ) ;
#326 = CIRCLE ( 'NONE', #190, 5.000000000000001776 ) ;
#327 = EDGE_LOOP ( 'NONE', ( #308, #38, #118, #285 ) ) ;
#328 = ORIENTED_EDGE ( 'NONE', *, *, #127, .T. ) ;
#329 = EDGE_LOOP ( 'NONE', ( #301, #256, #130, #53 ) ) ;
#330 = EDGE_CURVE ( 'NONE', #11, #19, #46, .T. ) ;
#331 = VECTOR ( 'NONE', #310, 1000.000000000000000 ) ;
#332 = DIRECTION ( 'NONE',  ( -1.000000000000000000, -0.000000000000000000, -0.000000000000000000 ) ) ;
#333 = AXIS2_PLACEMENT_3D ( 'NONE', #145, #126, #147 ) ;
#334 = CC_DESIGN_PERSON_AND_ORGANIZATION_ASSIGNMENT ( #153, #229, ( #133 ) ) ;
#335 = CARTESIAN_POINT ( 'NONE',  ( 3.000000000000000000, 6.123233995736768255E-16, -5.000000000000001776 ) ) ;
ENDSEC;
END-ISO-10303-21;
